  0
SECTION
  2
HEADER
  9
$ACADVER
  1
AC1009
  9
$INSBASE
 10
98.00491399999999
 20
53.05715
 30
0.0
  9
$EXTMIN
 10
98.00491399999999
 20
53.05715
 30
0.0
  9
$EXTMAX
 10
143.0575379999999
 20
87.193553
 30
0.0
  9
$LIMMIN
 10
95.20199
 20
50.02741799999999
  9
$LIMMAX
 10
147.524608
 20
91.02197999999999
  9
$ORTHOMODE
 70
     1
  9
$REGENMODE
 70
     1
  9
$FILLMODE
 70
     1
  9
$QTEXTMODE
 70
     0
  9
$MIRRTEXT
 70
     1
  9
$DRAGMODE
 70
     2
  9
$LTSCALE
 40
1.0
  9
$OSMODE
 70
     0
  9
$ATTMODE
 70
     2
  9
$TEXTSIZE
 40
0.2
  9
$TRACEWID
 40
0.05
  9
$TEXTSTYLE
  7
STANDARD
  9
$CLAYER
  8
0
  9
$CELTYPE
  6
BYLAYER
  9
$CECOLOR
 62
   256
  9
$DIMSCALE
 40
1.0
  9
$DIMASZ
 40
0.18
  9
$DIMEXO
 40
0.0625
  9
$DIMDLI
 40
0.38
  9
$DIMRND
 40
0.0
  9
$DIMDLE
 40
0.0
  9
$DIMEXE
 40
0.18
  9
$DIMTP
 40
0.0
  9
$DIMTM
 40
0.0
  9
$DIMTXT
 40
0.18
  9
$DIMCEN
 40
0.09
  9
$DIMTSZ
 40
0.0
  9
$DIMTOL
 70
     0
  9
$DIMLIM
 70
     0
  9
$DIMTIH
 70
     1
  9
$DIMTOH
 70
     1
  9
$DIMSE1
 70
     0
  9
$DIMSE2
 70
     0
  9
$DIMTAD
 70
     0
  9
$DIMZIN
 70
     0
  9
$DIMBLK
  1

  9
$DIMASO
 70
     1
  9
$DIMSHO
 70
     0
  9
$DIMPOST
  1

  9
$DIMAPOST
  1

  9
$DIMALT
 70
     0
  9
$DIMALTD
 70
     2
  9
$DIMALTF
 40
25.39999999999999
  9
$DIMLFAC
 40
1.0
  9
$DIMTOFL
 70
     0
  9
$DIMTVP
 40
0.0
  9
$DIMTIX
 70
     0
  9
$DIMSOXD
 70
     0
  9
$DIMSAH
 70
     0
  9
$DIMBLK1
  1

  9
$DIMBLK2
  1

  9
$DIMSTYLE
  2
*UNNAMED
  9
$DIMCLRD
 70
     0
  9
$DIMCLRE
 70
     0
  9
$DIMCLRT
 70
     0
  9
$DIMTFAC
 40
1.0
  9
$DIMGAP
 40
0.09
  9
$LUNITS
 70
     2
  9
$LUPREC
 70
     4
  9
$SKETCHINC
 40
0.1
  9
$FILLETRAD
 40
0.5
  9
$AUNITS
 70
     0
  9
$AUPREC
 70
     0
  9
$MENU
  1

  9
$ELEVATION
 40
0.0
  9
$PELEVATION
 40
0.0
  9
$THICKNESS
 40
0.0
  9
$LIMCHECK
 70
     0
  9
$BLIPMODE
 70
     0
  9
$CHAMFERA
 40
0.0
  9
$CHAMFERB
 40
0.0
  9
$SKPOLY
 70
     0
  9
$TDCREATE
 40
2448873.707373495
  9
$TDUPDATE
 40
2449393.438906712
  9
$TDINDWG
 40
0.0000394676
  9
$TDUSRTIMER
 40
0.0000394676
  9
$USRTIMER
 70
     1
  9
$ANGBASE
 50
0.0
  9
$ANGDIR
 70
     0
  9
$PDMODE
 70
     0
  9
$PDSIZE
 40
0.0
  9
$PLINEWID
 40
0.0
  9
$COORDS
 70
     0
  9
$SPLFRAME
 70
     0
  9
$SPLINETYPE
 70
     6
  9
$SPLINESEGS
 70
     8
  9
$ATTDIA
 70
     0
  9
$ATTREQ
 70
     1
  9
$HANDLING
 70
     0
  9
$HANDSEED
  5
0
  9
$SURFTAB1
 70
     6
  9
$SURFTAB2
 70
     6
  9
$SURFTYPE
 70
     6
  9
$SURFU
 70
     6
  9
$SURFV
 70
     6
  9
$UCSNAME
  2

  9
$UCSORG
 10
0.0
 20
0.0
 30
0.0
  9
$UCSXDIR
 10
1.0
 20
0.0
 30
0.0
  9
$UCSYDIR
 10
0.0
 20
1.0
 30
0.0
  9
$PUCSNAME
  2

  9
$PUCSORG
 10
0.0
 20
0.0
 30
0.0
  9
$PUCSXDIR
 10
1.0
 20
0.0
 30
0.0
  9
$PUCSYDIR
 10
0.0
 20
1.0
 30
0.0
  9
$USERI1
 70
     0
  9
$USERI2
 70
     0
  9
$USERI3
 70
     0
  9
$USERI4
 70
     0
  9
$USERI5
 70
     0
  9
$USERR1
 40
0.0
  9
$USERR2
 40
0.0
  9
$USERR3
 40
0.0
  9
$USERR4
 40
0.0
  9
$USERR5
 40
0.0
  9
$WORLDVIEW
 70
     1
  9
$SHADEDGE
 70
     3
  9
$SHADEDIF
 70
    70
  9
$TILEMODE
 70
     1
  9
$MAXACTVP
 70
    16
  9
$PINSBASE
 10
0.0
 20
0.0
 30
0.0
  9
$PLIMCHECK
 70
     0
  9
$PEXTMIN
 10
1.000000000000000E+20
 20
1.000000000000000E+20
 30
1.000000000000000E+20
  9
$PEXTMAX
 10
-1.000000000000000E+20
 20
-1.000000000000000E+20
 30
-1.000000000000000E+20
  9
$PLIMMIN
 10
0.0
 20
0.0
  9
$PLIMMAX
 10
12.0
 20
9.0
  9
$UNITMODE
 70
     0
  9
$VISRETAIN
 70
     0
  9
$PLINEGEN
 70
     0
  9
$PSLTSCALE
 70
     0
  9
$TREEDEPTH
 70
  3020
  9
$DWGCODEPAGE
  3
undefined
  0
ENDSEC
  0
SECTION
  2
TABLES
  0
TABLE
  2
VPORT
 70
     2
  0
VPORT
  2
*ACTIVE
 70
     0
 10
0.0
 20
0.0
 11
1.0
 21
1.0
 12
121.5713705289156
 22
71.53085532987033
 13
0.0
 23
0.0
 14
1.0
 24
1.0
 15
0.0
 25
0.0
 16
0.0
 26
0.0
 36
1.0
 17
0.0
 27
0.0
 37
0.0
 40
36.94741065974066
 41
1.275675675675675
 42
50.0
 43
0.0
 44
0.0
 50
0.0
 51
0.0
 71
     0
 72
   100
 73
     1
 74
     1
 75
     0
 76
     0
 77
     0
 78
     0
  0
ENDTAB
  0
TABLE
  2
LTYPE
 70
     4
  0
LTYPE
  2
CONTINUOUS
 70
    64
  3
Ausgezogene Linie
 72
    65
 73
     0
 40
0.0
  0
LTYPE
  2
AUSGEZOGEN
 70
    64
  3
Solid line
 72
    65
 73
     0
 40
0.0
  0
LTYPE
  2
ITEM-STRICHPUNKT
 70
    64
  3
__ . __ . __
 72
    65
 73
     4
 40
3.6
 49
2.399999999999999
 49
-0.6
 49
0.0
 49
-0.6
  0
LTYPE
  2
ITEM-STRICH
 70
    64
  3
- - - - -
 72
    65
 73
     2
 40
1.5
 49
1.2
 49
-0.3
  0
ENDTAB
  0
TABLE
  2
LAYER
 70
     6
  0
LAYER
  2
0
 70
    64
 62
     7
  6
CONTINUOUS
  0
LAYER
  2
ITEM_50
 70
    64
 62
     7
  6
AUSGEZOGEN
  0
LAYER
  2
ITEM_25
 70
    64
 62
     3
  6
AUSGEZOGEN
  0
LAYER
  2
ITEM_STP
 70
    64
 62
     4
  6
ITEM-STRICHPUNKT
  0
LAYER
  2
ITEM_GSTR
 70
    64
 62
     6
  6
ITEM-STRICH
  0
LAYER
  2
4
 70
    64
 62
     7
  6
CONTINUOUS
  0
ENDTAB
  0
TABLE
  2
STYLE
 70
     1
  0
STYLE
  2
STANDARD
 70
     0
 40
0.0
 41
1.0
 50
0.0
 71
     0
 42
0.2
  3
txt
  4

  0
ENDTAB
  0
TABLE
  2
VIEW
 70
     0
  0
ENDTAB
  0
TABLE
  2
UCS
 70
     0
  0
ENDTAB
  0
TABLE
  2
APPID
 70
     1
  0
APPID
  2
ACAD
 70
    64
  0
ENDTAB
  0
TABLE
  2
DIMSTYLE
 70
     0
  0
ENDTAB
  0
ENDSEC
  0
SECTION
  2
BLOCKS
  0
ENDSEC
  0
SECTION
  2
ENTITIES
  0
LINE
  8
ITEM_GSTR
 10
99.77915099999999
 20
62.59510099999999
 30
0.0
 11
99.77915099999999
 21
57.59510099999999
 31
0.0
  0
LINE
  8
ITEM_GSTR
 10
118.7791509999999
 20
62.59510099999999
 30
0.0
 11
118.7791509999999
 21
57.59510099999999
 31
0.0
  0
LINE
  8
ITEM_GSTR
 10
117.479151
 20
62.59510099999999
 30
0.0
 11
118.7791509999999
 21
62.59510099999999
 31
0.0
  0
LINE
  8
ITEM_GSTR
 10
99.77915099999999
 20
57.59510099999999
 30
0.0
 11
101.0791509999999
 21
57.59510099999999
 31
0.0
  0
LINE
  8
ITEM_STP
 10
109.2791509999999
 20
53.05715
 30
0.0
 11
109.2791509999999
 21
67.133052
 31
0.0
  0
LINE
  8
ITEM_STP
 10
120.553387
 20
60.09510099999999
 30
0.0
 11
98.00491399999999
 21
60.09510099999999
 31
0.0
  0
LINE
  8
ITEM_GSTR
 10
116.479151
 20
65.09510099999999
 30
0.0
 11
102.0791509999999
 21
65.09510099999999
 31
0.0
  0
LINE
  8
ITEM_GSTR
 10
117.479151
 20
62.59510099999999
 30
0.0
 11
117.479151
 21
64.09510099999999
 31
0.0
  0
LINE
  8
ITEM_GSTR
 10
101.0791509999999
 20
62.59510099999999
 30
0.0
 11
101.0791509999999
 21
64.09510099999999
 31
0.0
  0
LINE
  8
ITEM_GSTR
 10
101.0791509999999
 20
62.59510099999999
 30
0.0
 11
99.77915099999999
 21
62.59510099999999
 31
0.0
  0
LINE
  8
ITEM_GSTR
 10
101.0791509999999
 20
57.59510099999999
 30
0.0
 11
101.0791509999999
 21
56.09510099999999
 31
0.0
  0
LINE
  8
ITEM_GSTR
 10
101.0791509999999
 20
57.59510099999999
 30
0.0
 11
99.77915099999999
 21
57.59510099999999
 31
0.0
  0
LINE
  8
ITEM_GSTR
 10
117.479151
 20
57.59510099999999
 30
0.0
 11
117.479151
 21
56.09510099999999
 31
0.0
  0
LINE
  8
ITEM_GSTR
 10
117.479151
 20
57.59510099999999
 30
0.0
 11
118.7791509999999
 21
57.59510099999999
 31
0.0
  0
LINE
  8
ITEM_GSTR
 10
116.479151
 20
55.09510099999999
 30
0.0
 11
102.0791509999999
 21
55.09510099999999
 31
0.0
  0
LINE
  8
ITEM_GSTR
 10
117.479151
 20
57.59510099999999
 30
0.0
 11
118.7791509999999
 21
57.59510099999999
 31
0.0
  0
LINE
  8
ITEM_GSTR
 10
110.145176
 20
61.59510099999999
 30
0.0
 11
108.4131249999999
 21
61.59510099999999
 31
0.0
  0
LINE
  8
ITEM_GSTR
 10
111.0112009999999
 20
60.09510099999999
 30
0.0
 11
110.145176
 21
61.59510099999999
 31
0.0
  0
LINE
  8
ITEM_GSTR
 10
110.145176
 20
58.59510099999999
 30
0.0
 11
111.0112009999999
 21
60.09510099999999
 31
0.0
  0
LINE
  8
ITEM_GSTR
 10
108.4131249999999
 20
58.59510099999999
 30
0.0
 11
110.145176
 21
58.59510099999999
 31
0.0
  0
LINE
  8
ITEM_GSTR
 10
107.5471
 20
60.09510099999999
 30
0.0
 11
108.4131249999999
 21
58.59510099999999
 31
0.0
  0
LINE
  8
ITEM_GSTR
 10
108.4131249999999
 20
61.59510099999999
 30
0.0
 11
107.5471
 21
60.09510099999999
 31
0.0
  0
CIRCLE
  8
ITEM_GSTR
 10
109.2791509999999
 20
60.09510099999999
 30
0.0
 40
4.75
  0
CIRCLE
  8
ITEM_GSTR
 10
109.2791509999999
 20
60.09510099999999
 30
0.0
 40
1.899999999999999
  0
ARC
  8
ITEM_GSTR
 10
102.0791509999999
 20
64.09510099999999
 30
0.0
 40
1.0
 50
90.0
 51
180.0
  0
ARC
  8
ITEM_GSTR
 10
102.0791509999999
 20
56.09510099999999
 30
0.0
 40
1.0
 50
180.0
 51
270.0
  0
ARC
  8
ITEM_GSTR
 10
116.479151
 20
64.09510099999999
 30
0.0
 40
1.0
 50
0.0
 51
90.0
  0
ARC
  8
ITEM_GSTR
 10
116.479151
 20
56.09510099999999
 30
0.0
 40
1.0
 50
270.0
 51
0.0
  0
LINE
  8
0
 10
99.77915099999999
 20
80.777
 30
0.0
 11
99.77915099999999
 21
82.277
 31
0.0
  0
LINE
  8
0
 10
101.2791509999999
 20
83.777
 30
0.0
 11
117.2791509999999
 21
83.777
 31
0.0
  0
LINE
  8
0
 10
101.0791509999999
 20
80.96814499999999
 30
0.0
 11
101.0791509999999
 21
83.76360699999999
 31
0.0
  0
LINE
  8
0
 10
101.0791509999999
 20
82.677
 30
0.0
 11
117.479151
 21
82.677
 31
0.0
  0
LINE
  8
ITEM_STP
 10
109.2791509999999
 20
70.07084899999999
 30
0.0
 11
109.2791509999999
 21
87.193553
 31
0.0
  0
ARC
  8
0
 10
101.2791509999999
 20
82.277
 30
0.0
 40
1.5
 50
90.0
 51
180.0
  0
ARC
  8
0
 10
117.2791509999999
 20
82.277
 30
0.0
 40
1.5
 50
0.0
 51
90.0
  0
ARC
  8
0
 10
101.2791509999999
 20
80.777
 30
0.0
 40
1.5
 50
180.0
 51
287.3990699999999
  0
LINE
  8
0
 10
118.7791509999999
 20
80.777
 30
0.0
 11
118.7791509999999
 21
82.277
 31
0.0
  0
LINE
  8
0
 10
117.479151
 20
80.96814499999999
 30
0.0
 11
117.479151
 21
83.76360699999999
 31
0.0
  0
LINE
  8
4
 10
111.209151
 20
80.37699999999999
 30
0.0
 11
111.5291509999999
 21
80.87699999999999
 31
0.0
  0
LINE
  8
4
 10
107.349151
 20
80.37699999999999
 30
0.0
 11
107.0291509999999
 21
80.87699999999999
 31
0.0
  0
LINE
  8
0
 10
107.0291509999999
 20
81.977
 30
0.0
 11
106.7666509999999
 21
82.677
 31
0.0
  0
LINE
  8
0
 10
107.0291509999999
 20
80.87699999999999
 30
0.0
 11
107.0291509999999
 21
81.977
 31
0.0
  0
LINE
  8
0
 10
111.5291509999999
 20
81.977
 30
0.0
 11
111.791651
 21
82.677
 31
0.0
  0
LINE
  8
0
 10
111.5291509999999
 20
80.87699999999999
 30
0.0
 11
111.5291509999999
 21
81.977
 31
0.0
  0
LINE
  8
0
 10
111.7791509999999
 20
80.37699999999999
 30
0.0
 11
111.5291509999999
 21
80.87699999999999
 31
0.0
  0
LINE
  8
0
 10
106.7791509999999
 20
80.37699999999999
 30
0.0
 11
107.0291509999999
 21
80.87699999999999
 31
0.0
  0
LINE
  8
ITEM_50
 10
106.7791509999999
 20
72.14699999999999
 30
0.0
 11
111.7791509999999
 21
72.14699999999999
 31
0.0
  0
LINE
  8
ITEM_50
 10
107.0291509999999
 20
81.977
 30
0.0
 11
111.5291509999999
 21
81.977
 31
0.0
  0
LINE
  8
ITEM_50
 10
106.7791509999999
 20
72.14699999999999
 30
0.0
 11
107.349151
 21
71.57699999999999
 31
0.0
  0
LINE
  8
ITEM_50
 10
107.349151
 20
71.57699999999999
 30
0.0
 11
109.2791509999999
 21
71.57699999999999
 31
0.0
  0
LINE
  8
ITEM_50
 10
109.2791509999999
 20
71.57699999999999
 30
0.0
 11
111.209151
 21
71.57699999999999
 31
0.0
  0
LINE
  8
ITEM_50
 10
111.209151
 20
71.57699999999999
 30
0.0
 11
111.7791509999999
 21
72.14699999999999
 31
0.0
  0
LINE
  8
ITEM_50
 10
111.7791509999999
 20
72.14699999999999
 30
0.0
 11
111.7791509999999
 21
80.37699999999999
 31
0.0
  0
LINE
  8
ITEM_25
 10
107.349151
 20
71.57699999999999
 30
0.0
 11
107.349151
 21
80.37699999999999
 31
0.0
  0
LINE
  8
ITEM_25
 10
111.209151
 20
71.57699999999999
 30
0.0
 11
111.209151
 21
80.37699999999999
 31
0.0
  0
LINE
  8
ITEM_50
 10
106.7791509999999
 20
80.37699999999999
 30
0.0
 11
106.7791509999999
 21
72.14699999999999
 31
0.0
  0
LINE
  8
0
 10
107.1672419999999
 20
81.977
 30
0.0
 11
111.39106
 21
81.977
 31
0.0
  0
LINE
  8
0
 10
111.7791509999999
 20
80.37699999999999
 30
0.0
 11
106.7791509999999
 21
80.37699999999999
 31
0.0
  0
LINE
  8
0
 10
107.0291509999999
 20
80.87699999999999
 30
0.0
 11
111.5291509999999
 21
80.87699999999999
 31
0.0
  0
LINE
  8
ITEM_50
 10
114.0291509999999
 20
84.07700000000001
 30
0.0
 11
104.5291509999999
 21
84.07700000000001
 31
0.0
  0
LINE
  8
ITEM_50
 10
114.0291509999999
 20
83.777
 30
0.0
 11
114.0291509999999
 21
84.07700000000001
 31
0.0
  0
LINE
  8
ITEM_50
 10
104.5291509999999
 20
84.07700000000001
 30
0.0
 11
104.5291509999999
 21
83.777
 31
0.0
  0
LINE
  8
ITEM_50
 10
107.379151
 20
86.32700000000001
 30
0.0
 11
111.179151
 21
86.32700000000001
 31
0.0
  0
ARC
  8
ITEM_50
 10
108.973526
 20
81.37745799999999
 30
0.0
 40
5.2
 50
107.8550899999999
 51
148.725236
  0
ARC
  8
ITEM_50
 10
109.584776
 20
81.37745799999999
 30
0.0
 40
5.2
 50
31.274764
 51
72.14490999999999
  0
LINE
  8
0
 10
135.5575379999999
 20
79.277736
 30
0.0
 11
140.5575379999999
 21
79.277736
 31
0.0
  0
LINE
  8
0
 10
133.0575379999999
 20
83.777
 30
0.0
 11
143.0575379999999
 21
83.777
 31
0.0
  0
ARC
  8
ITEM_50
 10
138.3631629999999
 20
81.37745799999999
 30
0.0
 40
5.2
 50
31.274764
 51
72.14490999999999
  0
ARC
  8
ITEM_50
 10
137.751913
 20
81.37745799999999
 30
0.0
 40
5.2
 50
107.8550899999999
 51
148.725236
  0
LINE
  8
ITEM_50
 10
136.1575379999999
 20
86.32700000000001
 30
0.0
 11
139.9575379999999
 21
86.32700000000001
 31
0.0
  0
LINE
  8
ITEM_50
 10
133.3075379999999
 20
84.07700000000001
 30
0.0
 11
133.3075379999999
 21
83.777
 31
0.0
  0
LINE
  8
ITEM_50
 10
142.8075379999999
 20
83.777
 30
0.0
 11
142.8075379999999
 21
84.07700000000001
 31
0.0
  0
LINE
  8
ITEM_50
 10
142.8075379999999
 20
84.07700000000001
 30
0.0
 11
133.3075379999999
 21
84.07700000000001
 31
0.0
  0
LINE
  8
ITEM_50
 10
135.5575379999999
 20
80.37699999999999
 30
0.0
 11
135.5575379999999
 21
72.14699999999999
 31
0.0
  0
LINE
  8
ITEM_25
 10
139.987538
 20
71.57699999999999
 30
0.0
 11
139.987538
 21
79.277736
 31
0.0
  0
LINE
  8
ITEM_25
 10
136.1275379999999
 20
71.57699999999999
 30
0.0
 11
136.1275379999999
 21
79.277736
 31
0.0
  0
LINE
  8
ITEM_50
 10
140.5575379999999
 20
72.14699999999999
 30
0.0
 11
140.5575379999999
 21
80.37699999999999
 31
0.0
  0
LINE
  8
ITEM_50
 10
139.987538
 20
71.57699999999999
 30
0.0
 11
140.5575379999999
 21
72.14699999999999
 31
0.0
  0
LINE
  8
ITEM_50
 10
138.0575379999999
 20
71.57699999999999
 30
0.0
 11
139.987538
 21
71.57699999999999
 31
0.0
  0
LINE
  8
ITEM_50
 10
136.1275379999999
 20
71.57699999999999
 30
0.0
 11
138.0575379999999
 21
71.57699999999999
 31
0.0
  0
LINE
  8
ITEM_50
 10
135.5575379999999
 20
72.14699999999999
 30
0.0
 11
136.1275379999999
 21
71.57699999999999
 31
0.0
  0
LINE
  8
ITEM_50
 10
135.5575379999999
 20
72.14699999999999
 30
0.0
 11
140.5575379999999
 21
72.14699999999999
 31
0.0
  0
LINE
  8
ITEM_STP
 10
138.0575379999999
 20
70.07084899999999
 30
0.0
 11
138.0575379999999
 21
87.193553
 31
0.0
  0
LINE
  8
0
 10
133.0575379999999
 20
82.677
 30
0.0
 11
133.0575379999999
 21
83.777
 31
0.0
  0
LINE
  8
0
 10
143.0575379999999
 20
82.677
 30
0.0
 11
143.0575379999999
 21
83.777
 31
0.0
  0
LINE
  8
0
 10
140.5575379999999
 20
79.277736
 30
0.0
 11
140.5575379999999
 21
82.677
 31
0.0
  0
LINE
  8
0
 10
135.5575379999999
 20
79.277736
 30
0.0
 11
135.5575379999999
 21
82.677
 31
0.0
  0
LINE
  8
0
 10
133.0575379999999
 20
82.677
 30
0.0
 11
135.5575379999999
 21
82.677
 31
0.0
  0
LINE
  8
0
 10
140.5575379999999
 20
82.677
 30
0.0
 11
143.0575379999999
 21
82.677
 31
0.0
  0
LINE
  8
0
 10
106.5791509999999
 20
80.75257299999999
 30
0.0
 11
101.697039
 21
79.336386
 31
0.0
  0
LINE
  8
0
 10
106.5791509999999
 20
80.75257299999999
 30
0.0
 11
106.272699
 21
81.80902299999999
 31
0.0
  0
LINE
  8
0
 10
106.272699
 20
81.80902299999999
 30
0.0
 11
101.7184469999999
 21
80.48794
 31
0.0
  0
ARC
  8
0
 10
101.5791509999999
 20
80.96814499999999
 30
0.0
 40
0.5
 50
180.0
 51
286.176216
  0
ARC
  8
0
 10
116.979151
 20
80.96814499999999
 30
0.0
 40
0.5
 50
253.8237839999999
 51
0.0
  0
LINE
  8
0
 10
112.2856019999999
 20
81.80902299999999
 30
0.0
 11
116.839854
 21
80.48794
 31
0.0
  0
LINE
  8
0
 10
111.979151
 20
80.75257299999999
 30
0.0
 11
112.2856019999999
 21
81.80902299999999
 31
0.0
  0
LINE
  8
0
 10
111.979151
 20
80.75257299999999
 30
0.0
 11
116.861262
 21
79.336386
 31
0.0
  0
ARC
  8
0
 10
117.2791509999999
 20
80.777
 30
0.0
 40
1.5
 50
253.8237839999999
 51
0.0
  0
ENDSEC
  0
EOF
